Хуй в пальто - текст песни


Fm
А я ответил:
G#
- Твой хуй в пальто!

Рифф Дыва (играется 4 раза)

(Че-Че-Че-Чекитаут-Йо!)
Рифф Адын (играется или весь куплет
или как вступление к нему - раза 4)

Ползу домой, Ползу домой,
Звоню в звонок,
Я весь промок!

А ты мне из-за двери:
- А это, бля, кто?
А я ответил:
- Твой хуй в пальто!

Рифф Дыва (играется 4 раза)
Басс Рифф (играется 1 разЪ)
Трубное соло (играется 3-4 разЪ)

Я хуй в пальто!
Рифф Дыва (играется 4 раза)

Рифф Дыва играется так (или с вариациями :)
Fm G#
e|----------------------------------------
B|----------------------------------------
G|------------------------1-3-1-4-1-------
D|-3-3-3--3-3-3-3--1-1--1-----------------
A|----------------------------------------
E|----------------------------------------

Трубное соло на гитаре, кажется, выглядит так:
Fm G#
e|--------------------------------------------
B|--------------------------------------------
G|--------------------------------------------
D|------------3---3---3-----------------------
A|-------1--3---3---3----3-1-----1--3-1-----1-
E|-1-3-4---------------------4-3--------4-3---

Басс Рифф:
Fm G#
e|--------------------------------------------
B|--------------------------------------------
G|--------------------------------------------
D|--------------------------------------------
A|-----3--------3--------3----1---2-----------
E|-1-4---4--1-4---4--Х-4---4----4---4---------
там, где стоит буква Х надо бы сыграть ноту,
которую на гитаре не взять :( лучше там
делать паузу или ваще нахрен не играть этот
рифф.

Вообще, надо бы играть эту песню так:
Один чувак рубит ритм (просто аккорды) и орет.
Второй, спокойно так, бацает риффы.
А еще лучше - найти людей с трубой, контрабасом
и собрать свою команду :)

2-ой вариант (мой)

Am E Am
Я пиполз домой звоню в звонок
E Am
Блюю, шатаюсь, на сквозь промок
F Am
А ты мне из-за двери "А это бля кто?"
F G Am
А я ответил - "Твой Хуй в пальто"

Ползу домой, ползу домой
Звоню в звонок, я весь помок
А ты мне из-за двери: "А это бля кто"
А я ответил: "Твой Хуй в пальто"



Другие песни исполнителя:

Все тексты Ленинград