Агент 007(+аккорды) - текст песни

Am E
Я, я, я, я пришёл сегодня пьяный в жопу
Am E
Ты, ты, ты сказала твои нервы скоро лопнут
Dm Am
Ты сказала что не можешь со мной
Am E
Ты, ты, ты сказала алкоголик больной
Dm Am
Ты, ты, ты, ты сказала ухожу насовсем
E E7 Am
А мне плевать уходи - я агент 007

Я сегодня пьяный в жопу
Ты сказала твои нервы лопнут
Ты скащзала что е любишь меня
Ты сказала я похож на свинья
Ты, ты, ты, ты сказала что уходишь опять
А мне плевать, уходи, у меня есть 0,5



Вступление:

2)---1-5-4--1-4-8-7--4-7-11-10----7-10-11-----|
3)-2------------------------------------------|

00:10

Am Am1 Am2

1)-5-5---5-5---5-5---| Когда ирается 3-ий и 4-ый раз,труба орёт:
2)-5-5---6-6---7-7---|
3)-5-5---5-5---5-5---| X 4 3)-2-4-4-4--2-2-2-2-5-5-5-4-4--| X2
4)-7-7---7-7---7-7---| А потом :
5)-7-7---7-7---7-7---| 2)---1-5-4--1-4-5--|
6)-5-5---5-5---5-5---| 3)-2---------------|

Бас: Dm Dm1 Dm2

5)--0--6-7-0--6-7-0---| 1)--5-5---6-6--7-7----|



Другие песни исполнителя:

Все тексты Ленинград